TabNabber Tabs   Musician Supported
  Music Tabs
Espa˝ol English
Franšais Русский
guitar

Guitar Tab, Chords



(0 from 0 votes)
166 Views, Last Update 19 days ago new updated
by: Gman
guest
[Guest]
e|-----------------------------||-----------------------------||---------------------------||-----------------------||------------------||---------------------------------------------|
b|-----------------------------||-----------------------------||---------------------------||-----------------------||------------------||---------------------------------------------|
g|-----------------------------||-----------------------------||--5-----7-----9--------4---||-----------------------||------------------||----------3--4--------7----2-2----------5----|
d|--7h9-----9-----9---7---7----||-----------------------------||--5--3--7--5--9--7--4--4---||--7/9--7/9--7/9--12----||------------------||--2--2----3--4-----7--7----2-2----4--5--5----| 
a|--7h7-----7-----7---7---7----||--5h7-----7-----7---5---5----||--3--3--5--5--7--7--4--2---||--5/7--5/7--5/7--10----||--7p5----5--------||--2--2----1--2-----7--5----0-0----4--5--3----| 
e|------e-e---e-e---e---e------||--5h5-5-5-5-5-5-5-5-5-5-5----||-----1-----3-----5--2------||-----------------------||-------7---7-3----||--0--0-------------5--------------2--3-------| 
                                                                   


e|----------------------------------------------------------------||------------------||---------------||----------------------||------------------------------------||--------------------------0-----| 
b|----------------------------------------------------------------||------------------||---------------||----------------------||------------------------------------||--------------------------0-----| 
g|----5---5-5--------------------5---5-5--------------------------||--4--5------------||--9--------7---||----------------------||----------------------5-----7--4----||--------------------------1-----|  
d|----5---5-5-------5h7p5--------5---5-5-------5h7p5--------------||--4--5--6-7-8-9---||--9--------7---||----9---9-9-----------||--------2--------2----5--5--7--4----||--7-7--9-9--12-12-14-14---2-----| 
a|--0---0-----0-5h7-------7p5--0---0-----0-5h7-------7-6-5-3------||--2--3--4-5-6-7---||--7--7p5---5---||----7---7-7-----------||--------2--------2----3--5--5--2----||--5-5--7-7--10-10-12-12---2-----| 
e|----------------------------------------------------------------||------------------||---------7-----||--0---0------5-4-3----||--5-4-3-0--5-4-3-0-------3----------||--------------------------0-----|


Login to Edit
Edit
YouTube
Video
View Sheet Music
Sheet
Music
Print
Download Midi
Speed:
Download Midi Intro (login for the full song)
Get
Intro
Sustain:
alt 1     alt 2

 Rate:
5 star
4 star
3 star
2 star
1 star
 

Comments (0)
 

No comments yet...

Comment on this tab   -   Unhelpful comments are exterminated.
  Your Guest Name:
      [Member Login]
  Comments:
 

Don't understand the tab?
See "How to Read Guitar Tabs".
Supported tags:
<i>italics</i>
<b>bold</b>
<u>underline</u>
<tab>tab lines</tab>
  Are you a spam robot?

If not, solve the equation:




[91584 TabNabbers online]


©2022 TabNabber.com - Musician Supported Contact us Advertising Merchandise Privacy Policy Terms of Use facebook Twitter