TabNabber Tabs   Musician Supported
  Music Tabs
Espa˝ol English
Franšais Русский
guitar

Guitar Tab, Chords



(0 from 0 votes)
163 Views, Last Update 19 days ago new
by: Donald Trump
guest
[Guest]
D |----------------------------------------|
A |----------------------------------------|
G |--2-------------------------------------|
D |--0--------0--------4-------------------|
G |-----------------------------0-----0----|
D |--0-----0-----0-----0-----0-----0-------|
 
 
D|----------------------------------------|
A|----------------------------------------|
G|----------------------------------------|
D|--4h-2-----0-----------------0-----0----|
G|--------------------2s-4----------------|
D|--0-----0-----0-----0-----0-----0-------|
 
                    ^
D|-----------------------------0----------|
A|-----------0--------0-------------------|
G|--------0-----------6-------------------|
D|--------------------0--------------0----|
G|----------------------------------------|
D|--5-----------5-----5-----5-----5-------|


Login to Edit
Edit
YouTube
Video
View Sheet Music
Sheet
Music
Print
Download Midi
Speed:
Download Midi Intro (login for the full song)
Get
Intro
Sustain:
alt 1     alt 2

 Rate:
5 star
4 star
3 star
2 star
1 star
 

Comments (0)
 

No comments yet...

Comment on this tab   -   Unhelpful comments are exterminated.
  Your Guest Name:
      [Member Login]
  Comments:
 

Don't understand the tab?
See "How to Read Guitar Tabs".
Supported tags:
<i>italics</i>
<b>bold</b>
<u>underline</u>
<tab>tab lines</tab>
  Are you a spam robot?

If not, solve the equation:




[87270 TabNabbers online]


©2022 TabNabber.com - Musician Supported Contact us Advertising Merchandise Privacy Policy Terms of Use facebook Twitter