TabNabber Tabs   Musician Supported
  Music Tabs
Espa˝ol English
Franšais Русский
bass

Bass Guitar Tab, Chords



(0 from 0 votes)
204 Views, Last Update 18 days ago new
by: Bass in yo face
guest
[Guest]
G|----------------|----------------|----------------|----------------|
D|----9-----------|----9-----------|----9-----------|----9-----------|
A|--------7-6-----|--------7-6-----|--------7-6-----|--------7-6-----|
E|7-----------9-7-|------------9-7-|------------9-7-|------------9-7-|
 
G|----------------|------9---9-----|----------------|----------------|
D|----9-----------|7-----------7---|------7---7-----|----9-----------|
A|--------7-6-7---|----------------|7-----------7---|--------7-6-----|
E|----------------|--------------9-|----------------|7-----------9-7-|
 
G|----------------|----------------|----------------|----------------|
D|----9-----------|----9-----------|----9-----------|----9-----------|
A|--------7-6-----|--------7-6-----|--------7-6-----|--------7-6-7---|
E|------------9-7-|7-----------9-7-|------------9-7-|----------------|
 
G|------9---9-----|----------------|----------------|-----------------|
D|7-----------7---|------7---7-----|----9-----------|----9-8-9-11-9-8-|
A|----------------|7-----------7---|--------7-6-7---|-----------------|
E|--------------9-|----------------|7-------------7-|-----------------|
 
G|------------------|------------------|----------------|----------------|
D|------------------|------------------|----------------|----------------|
A|11-----9h11-----9h|11-----9h11-9-7-6-|7---7-6-7-6-----|----------6-7-9h|
E|------------------|------------------|------------9-7-|7-----7-9-------|
 
G|------------------|------------------|----------------|----------------|
D|------------------|------------------|----------------|----------------|
A|11-----9h11-----9h|11-----9h11-9-7-6-|7---7-6-7-6---9-|9-9-9-9-9-9-9-9-|
E|------------------|------------------|------------9---|----------------|
 
G|----------------|
D|----------------|
A|9-7-7-6-7-7-6---|
E|--------------9-|
 
G|----------------|----------------|----------------|
D|----9-----------|----9-----------|----9-----------|
A|--------7-6-----|--------7-6-----|--------7-6-7---|
E|7-----------9-7-|------------9-7-|----------------|
 
G|------9---9-----|----------------|----------------|----------------|
D|7-----------7---|------7---7-----|----9-----------|----9-----------|
A|----------------|7-----------7---|--------7-6-----|--------7-6-----|
E|--------------9-|----------------|7-----------9-7-|------------9-7-|
 
G|----------------|----------------|----------------|------9---9-----|
D|----9-----------|----9-----------|----9-----------|7-----------7---|
A|--------7-6-----|--------7-6-----|--------7-6-7---|----------------|
E|7-----------9-7-|------------9-7-|----------------|--------------9-|
 
G|----------------|----------------|-----------------|------------------|
D|------7---7-----|----9-----------|----9-8-9-11-9-8-|------------------|
A|7-----------7---|--------7-6-----|-----------------|11-----9h11-----9h|
E|----------------|7-----------9-7-|-----------------|------------------|
 
G|------------------|----------------|----------------|------------------|
D|------------------|----------------|----------------|------------------|
A|11-----9h11-9-7-6-|7---7-6-7-6-----|----------6-7-9h|11-----9h11-----9h|
E|------------------|------------9-7-|7-----7-9-------|------------------|
 
G|------------------|----------------|----------------|----------------|
D|------------------|----------------|----------------|----------------|
A|11-----9h11-9-7-6-|7---7-6-7-6---9-|9-9-9-9-9-9-9-9-|9-7-7-6-7-7-6---|
E|------------------|------------9---|----------------|--------------9-|
 
G|----------------|----------------|----------------|------9---9-----|
D|----9-----------|----9-----------|----9-----------|7-----------7---|
A|--------7-6-----|--------7-6-----|--------7-6-7---|----------------|
E|7-----------9-7-|------------9-7-|----------------|--------------9-|
 
G|----------------|----------------|----------------|----------------|
D|------7---7-----|----9-----------|----9-----------|----9-----------|
A|7-----------7-7-|--------7-6-----|--------7-6-----|--------7-6-----|
E|----------------|7-----------9-7-|------------9-7-|7-7---------9-7-|
 
G|----------------|----------------|------9---9-----|----------------|
D|----9-----------|----9-----------|7-----------7---|------7---7-----|
A|--------7-6-----|--------7-6-7---|----------------|7-----------7-7-|
E|------------9-7-|----------------|--------------9-|----------------|
 
G|----------------|-----------------|------------------|------------------|
D|----9-----------|----9-8-9-11-9-8-|------------------|------------------|
A|--------7-6-7---|-----------------|11-----9h11-----9h|11-----9h11-9-7-6-|
E|7-------------7-|-----------------|------------------|------------------|
 
G|----------------|----------------|------------------|------------------|
D|----------------|----------------|------------------|------------------|
A|7---7-6-7-6-----|----------6-7-9h|11-----9h11-----9h|11-----9h11-9-7-6-|
E|------------9-7-|7-----7-9-------|------------------|------------------|
 
G|----------------|----------------|----------------|
D|----------------|----------------|----------------|
A|7---7-6-7-6---7h|9---9-7h9-9-7h9-|--9-9-7h9-7-6---|
E|------------9---|----------------|--------------9-|
 
G|----------------|----------------|----------------|----------------|
D|----------------|----------------|9-----9---------|9-----9---------|
A|7-----7-------6-|7-----7-----7---|------------7h9-|------------9---|
E|------------7---|----------------|----------------|----------------|
 
G|----------------|----------------|----------------|------------------|
D|----------------|----------------|9------9--------|------------------|
A|7-----7-------6-|7-----7-----7---|------------7h9-|11-----9h11-----9h|
E|------------7---|----------------|----------------|------------------|
 
G|-------------------|----------------|----------------|--------------------|
D|-------------------|----------------|----------------|--------------------|
A|11------9h11-9-7-6-|7---7-6-7-6-----|----------6-7-9h|11---11-9h11---11-9h|
E|-------------------|------------9-7-|7-----7-9-------|--------------------|
 
G|-------------------|----------------|----------------|--------------------|
D|-------------------|----------------|----------------|--------------------|
A|11---11-9h11-9-7-6-|7---7-6-7-6---7-|7---------6-7-9h|11---11-9h11---11-9h|
E|-------------------|------------9---|------7-9-------|--------------------|
 
G|-------------------|----------------|----------------|----------------|
D|-------------------|----------------|----------------|----------------|
A|11---11-9h11-9-7-6-|7---7-6-7-6---7h|9---9-7h9-9-7h9-|--9-9-7h9-7-6---|
E|-------------------|------------9---|----------------|--------------9-|
 
G|----------------|----------------|----------------|----------------|
D|----------------|----------------|9-----9---------|9-----9---------|
A|7-----7-------6-|7-----7-----7---|------------7h9-|------------9---|
E|------------7---|----------------|----------------|----------------|
 
G|----------------|----------------|----------------|------------------|
D|----------------|----------------|9-----9---------|------------------|
A|7-----7-------6-|7-----7-----7---|------------7h9-|11-----9h11-----9h|
E|------------7---|----------------|----------------|------------------|
 
G|------------------|----------------|----------------|--------------------|
D|------------------|----------------|----------------|--------------------|
A|11-----9h11-9-7-6-|7---7-6-7-6-----|----------6-7-9h|11---11-9h11---11-9h|
E|------------------|------------9-7-|7-----7-9-------|--------------------|
 
G|-------------------|----------------|----------------|----------------|
D|-------------------|----------------|----------------|----------------|
A|11---11-9h11-9-7-6-|7---7-6-7-6---9-|9-9-9-9-9-9-9-9-|9-7-7-6-7-7-6---|
E|-------------------|------------9---|----------------|--------------9-|
 
G|----------------|----------------|----------------|----------------|
D|----9-----------|----------------|----9-----------|----------------|
A|--------7-6-----|--7-7-6-7-7-6---|--------7-6-----|--7-7-6-7-7-6---|
E|7-----------9-7-|--------------9-|7-----------9-7-|--------------9-|
 
G|----------------|----------------|
D|----9-----------|----------------|
A|--------7-6-----|--7-7-6-7-7-6---|
E|7-----------9-7-|--------------9-|
 
G|----------------------|
D|9---7h9---7h9---7h9---|
A|----------------------|
E|----------------------|
 
G||------------------|----99-9-9-9----7-||
D||9---9--9----7-9---|--7---------7h9---||
A||--------7h9-----7-|------------------||
E||------------------|------------------||
 
G||------------------|-----------------||
D||9---9--9----7-9---|---------------7-||
A||--------7h9-----7-|--7---6-7---7h9--||
E||------------------|-----------------||
 
G|-----------------|
D|-----------------|
A|777---7---7----5-|
E|------------5h7--|
 
G||-----------------||
D||-----------------||
A||-----------------||
E||7*-------------5h||
 
G||-----------------|-----------------|-----------------|-----------------||
D||-----------------|-----------------|-----------------|-----------------||  
A||-----------------|-----------------|-----------------|-----------------||
E||7*---------------|5*---------------|0*---------------|7*-------------5h||
 
G||-----------------||
D||-----------------||
A||-----------------||
E||7*-------------5h||
 
G|----------------|
D|----------------|
A|----------------|
E|7---------------|
 
G|7h9p7h9p7h9-7h9p7h9p7h9-7-9^*-|----------------|----------------|
D|------------------------------|----------------|----------------|
A|------------------------------|----------------|----------------|
E|------------------------------|----------------|----------------|
 
G||----------------||
D||----------------||
A||----------------||
E||7-7-7--7-7-77-5h||
 
G||-----------------||
D||-----------------||
A||-----------------||
E||7*-------------5h||
 
G|-----------------|-----------------|-----------------|-----------------|
D|-----------------|-----------------|-----------------|-----------------|
A|-----------------|-----------------|-----------------|-----------------|
E|7*---------------|5*---------------|0*---------------|7*-------------5h|
 
G|-----------------|-----------------|-----------------|-----------------|
D|-----------------|-----------------|-----------------|-----------------|
A|-----------------|-----------------|-----------------|-----------------|
E|7*---------------|5*---------------|0*---------------|7*---------------|
 
G|-----------------|-----------------|
D|-----------------|-----------------|
A|-----------------|-----------------|
E|7*---------------|7*---------------|
 

G|-----------------|-----------------|
D|-----------------|-----------------|
A|-----------------|-----------------|
E|--------------5*-|--------------0*-|
 
G||-----------------||
D||-----------------||
A||-----------------||
E||--------------7*-||
 
G|-----------------|-----------------|-----------------|
D|-----------------|-----------------|-----------------|
A|-----------------|-----------------|-----------------|
E|------------7-5*-|------------5-0*-|------------5-7*-|
 
G||-----------------||
D||-----------------||
A||-----------------||
E||------------7-7*-||
 
G|-----------------|-----------------|-----------------|-----------------|
D|-----------------|-----------------|-----------------|-----------------|
A|-----------------|-----------------|-----------------|-----------------|
E|--------------7*-|--------------5*-|--------------0*-|--------------7*-|
 
G|-----------------|----------------|----------------|----------------|
D|-----------------|----------------|----9-----------|----9-----------|
A|-----------------|----------------|--------7-6-----|--------7-6-----|
E|--------------7*-|--------------7-|------------9-7-|------------9-7-|
 
G|----------------|-----------------|-----------------|----------------|
D|----9-----------|----9------------|-----------------|----------------|
A|--------7-6-----|--------7-9------|-----------------|----------------|
E|------------9-7-|------------9-5*-|--------------0*-|----------------|
 
G|----------------|----------------|----------------|----------------|
D|----9-----------|----9-----------|----9-----------|----9-----------|
A|--------7-6-----|--------7-6-----|--------7-6-----|--------7-6-----|
E|7-----------9-7-|------------9-7-|------------9-7-|------------9-7-|
 
G|----------------|-----------------|-----------------|----------------|
D|---9------------|----9------------|-----------------|----------------|
A|--------7-6-----|--------7-6------|-----------------|----------------|
E|------------9-7-|------------9-5*-|--------------0*-|--------------7-|
 
G|----------------|-----------------|----------------|----------------|
D|----9-----------|----9------------|----------------|----------------|
A|--------7-6-----|--------7-6------|----------------|----------------|
E|------------9-7-|------------9-7*-|----------------|----------------|


Login to Edit
Edit
YouTube
Video
View Sheet Music
Sheet
Music
Print
Download Midi
Speed:
Download Midi Intro (login for the full song)
Get
Intro
Sustain:
alt 1     alt 2

 Rate:
5 star
4 star
3 star
2 star
1 star
 

Comments (0)
 

No comments yet...

Comment on this tab   -   Unhelpful comments are exterminated.
  Your Guest Name:
      [Member Login]
  Comments:
 

Don't understand the tab?
See "How to Read Guitar Tabs".
Supported tags:
<i>italics</i>
<b>bold</b>
<u>underline</u>
<tab>tab lines</tab>
  Are you a spam robot?

If not, solve the equation:




[87048 TabNabbers online]


©2022 TabNabber.com - Musician Supported Contact us Advertising Merchandise Privacy Policy Terms of Use facebook Twitter