TabNabber Tabs   Musician Supported
  Music Tabs
Espa˝ol English
Franšais Русский
guitar

Guitar Tab, Chords



(0 from 0 votes)
187 Views, Last Update 13 days ago new updated
by: Barack Obama
guest
[Guest]
e|-----------------------------------------|
B|2----2----6----6----9----9----10---10----|
G|-2---------4---------10--------11-----11-|x2
D|--4---------6---------11--------11-------|
A|-----------------------------------------|
E|-----------------------------------------|

e|-----------------------------------------|
B|2----2----6----6----9----9----10---14-12-|
G|-2---------4---------10---10---11--------|
D|--4---------6---------11---11---15-------|x2
A|-----------------------------------------|
E|-----------------------------------------|

e|----------------------------------------|
B|2----2------6--6----9----9----10-----10-|
G|-2---------4---------10---10---11---11--|x2
D|--4-------6-----------11---11---11-11---|
A|----------------------------------------|
E|----------------------------------------|


Login to Edit
Edit
YouTube
Video
View Sheet Music
Sheet
Music
Print
Download Midi
Speed:
Download Midi Intro (login for the full song)
Get
Intro
Sustain:
alt 1     alt 2

 Rate:
5 star
4 star
3 star
2 star
1 star
 

Comments (0)
 

No comments yet...

Comment on this tab   -   Unhelpful comments are exterminated.
  Your Guest Name:
      [Member Login]
  Comments:
 

Don't understand the tab?
See "How to Read Guitar Tabs".
Supported tags:
<i>italics</i>
<b>bold</b>
<u>underline</u>
<tab>tab lines</tab>
  Are you a spam robot?

If not, solve the equation:




[90886 TabNabbers online]


©2022 TabNabber.com - Musician Supported Contact us Advertising Merchandise Privacy Policy Terms of Use facebook Twitter