TabNabber Tabs   Musician Supported
  Music Tabs
Espa˝ol English
Franšais Русский
guitar

Guitar Tab, Chords



(0 from 0 votes)
126 Views, Last Update 14 days ago new updated
by: Barack Obama
guest
[Guest]
e|----------------|----------------|
B|5---5---5---1---|----5-------1---|
G|4---4---4---0---|-----4--4----0--|
D|5-------5---2---|--5---5--5----2-|x2
A|3---5---3---3---|3---------3-----|
E|----------------|----------------|

e|----------------|
B|----5-------1---|
G|-4-4-4--4----0-0|
D|--5---5--5-5--2-|x4
A|3------3--3-----|
E|----------------|

e|----------------|----------------|
B|5---5---5---1---|----5-------1---|
G|4---4---4---0---|-----4--4----0--|
D|5-------5---2---|--5---5--5----2-|x2
A|3---5---3---3---|3---------3-----|
E|----------------|----------------|


Login to Edit
Edit
YouTube
Video
View Sheet Music
Sheet
Music
Print
Download Midi
Speed:
Download Midi Intro (login for the full song)
Get
Intro
Sustain:
alt 1     alt 2

 Rate:
5 star
4 star
3 star
2 star
1 star
 

Comments (0)
 

No comments yet...

Comment on this tab   -   Unhelpful comments are exterminated.
  Your Guest Name:
      [Member Login]
  Comments:
 

Don't understand the tab?
See "How to Read Guitar Tabs".
Supported tags:
<i>italics</i>
<b>bold</b>
<u>underline</u>
<tab>tab lines</tab>
  Are you a spam robot?

If not, solve the equation:




[85061 TabNabbers online]


©2022 TabNabber.com - Musician Supported Contact us Advertising Merchandise Privacy Policy Terms of Use facebook Twitter