TabNabber Tabs   Musician Supported
  Music Tabs
Espa˝ol English
Franšais Русский
guitar

Guitar Tab, Chords



(0 from 0 votes)
136 Views, Last Update 12 days ago new
by: Anonymous
guest
[Guest]
|       |       |       |        |       |       |       |
e|--------------------------------|--------------------------------|
b|--------3-----------3-----------|--------3-----------3-----------|
g|----2-----------2-----------2---|----2-----------2-----------2---|
d|0-----------0-----------0-------|0-----------0-----------0-------|
a|--------------------------------|--------------------------------|
e|--------------------------------|--------------------------------|
 
  |       |       |       |        |       |       |       |
e|--------------------------------|--------------------------------|
b|--------3-----------3-----------|--------3-----------3-----------|
g|----2-----------2-----------2---|----2-----------2-----------2---|
d|0-----------0-----------0-------|0-----------0-----------0-------|
a|--------------------------------|--------------------------------|
e|--------------------------------|--------------------------------|
 
  |       |       |       |        |       |       |       |
e|9-------9h10p-------------------|--------------------------------|
b|10------10----------10------8---|--------8-----------8-----------|
g|----9---------------11------9---|----9-----------9-----------9---|
d|0-------0-------0-------0-------|0-----------0-----------0-------|
a|--------------------------------|--------------------------------|
e|--------------------------------|--------------------------------|
 
  |       |       |       |        |       |       |       |
e|7-------7h9-7-------------------|--------------------------------|
b|8-------8---8-------8-------7---|--------7-----------7-------7---|
g|--------------------9-------7---|----7-----------7---------------|
d|----0-----------0-------0-------|0-----------0-----------0-------|
a|--------------------------------|--------------------------------|
e|--------------------------------|--------------------------------|
 
  |       |       |       |        |       |       |       |
e|5---5h7-----7-------5-------2---|--------------------------------|
b|7---7-------7---------------3---|------------3---2-------3-------|
g|7---7-------6---------------4---|--------4-------2-------0-------|
d|0-----------0-------------------|----4---------------------------|
a|--------------------------------|--------------------------------|
e|----------------------------3---|----------------2-------0-------|
 
  |       |       |       |        |       |       |       |
e|--------------------------------|--------------------------------|
b|--------3---2-------4/5-----3---|------------3---2-------3-------|
g|------------2---------------4---|--------4-------2-------0-------|
d|--------------------------------|----4---------------------------|
a|--------------------------------|--------------------------------|
e|------------2---------------3---|----------------2-------0-------|
 
  |       |       |       |        |       |       |       |
e|--------------------------------|------------------------5/7-----|
b|--------3---2-------4/5-----3---|------------3---2-------6/8-----|
g|------------2---------------4---|--------4-------2---------------|
d|--------------------------------|----4---------------------------|
a|--------------------------------|------------------------0-------|
e|------------2---------------3---|----------------2---------------|
 
  |       |       |       |        |       |       |       |
e|--------------------------------|--------------------------------|
b|----8-------5---------------3---|--------3-----------3-----------|
g|------------6-------6-----------|----2-----------2-----------2---|
d|--------------------------------|0-----------0-----------0-------|
a|--------------------------------|--------------------------------|
e|------------5-------------------|--------------------------------|
 
  |       |       |       |        |       |       |       |
e|--------------------------------|5-------5---5-------5-------5---|
b|--------3-----------3-----------|5-------5---5-------5-------7---|
g|----2-----------2-----------2---|4-------4---4-------4-------6---|
d|0-----------0-----------0-------|--------------------------------|
a|--------------------------------|4---------------------------5---|
e|--------------------------------|--------------------------------|
 
  |       |       |       |        |       |       |       |
e|----5h7---------------------7---|5-------4-----------------------|
b|--------------------------------|5-----------7p--5h--7-----------|
g|--------------------------------|4-------------------------------|
d|--------------------------------|--------------------------------|
a|--------------------------------|4-------------------------------|
e|--------------------------------|--------------------------------|
 
  |       |       |       |        |       |       |       |
e|----------------------------5---|5-------5---4-------5-----------|
b|--------5-----------5-----------|5-------------------------------|
g|----6-------4-------------------|4-------------------------------|
d|0-------------------------------|--------------------------------|
a|--------------------------------|4-------------------------------|
e|--------------------------------|--------------------------------|
 
  |       |       |       |        |       |       |       |
e|10------9---7h9p7---------------|7-------------------------------|
b|7---------------------10--------|8-------------------------------|
g|9-------------------------------|7-------------------------------|
d|--------------------------------|9-------------------------------|
a|7-------------------------------|7-------------------------------|
e|--------------------------------|--------------------------------|
 
  |       |       |       |        |       |       |       |
e|--------------------------------|--------------------------------|
b|--------3-----------3-----------|--------3-----------3-----------|
g|----2-----------2-----------2---|----2-----------2-----------2---|
d|0-----------0-----------0-------|0-----------0-----------0-------|
a|--------------------------------|--------------------------------|
e|--------------------------------|--------------------------------|
 
  |       |       |       |        |       |       |       |
e|9-------9h10p-------------------|--------------------------------|
b|10------10----------10------8---|--------8-----------8-----------|
g|----9---------------11------9---|----9-----------9-----------9---|
d|0-------0-------0-------0-------|0-----------0-----------0-------|
a|--------------------------------|--------------------------------|
e|--------------------------------|--------------------------------|
 
  |       |       |       |        |       |       |       |
e|7-------7h9-7-------------------|--------------------------------|
b|8-------8---8-------8-------7---|--------7-----------7-------7---|
g|--------------------9-------7---|----7-----------7---------------|
d|----0-----------0-------0-------|0-----------0-----------0-------|
a|--------------------------------|--------------------------------|
e|--------------------------------|--------------------------------|
 
  |       |       |       |        |       |       |       |
e|5---5h7-----7-------5-------2---|--------------------------------|
b|7---7-------7---------------3---|------------3---2-------3-------|
g|7---7-------6---------------4---|--------4-------2-------0-------|
d|0-----------0-------------------|----4---------------------------|
a|--------------------------------|--------------------------------|
e|----------------------------3---|----------------2-------0-------|
 
  |       |       |       |        |       |       |       |
e|--------------------------------|--------------------------------|
b|--------3---2-------4/5-----3---|------------3---2-------3-------|
g|------------2---------------4---|--------4-------2-------0-------|
d|--------------------------------|----4---------------------------|
a|--------------------------------|--------------------------------|
e|------------2---------------3---|----------------2-------0-------|
 
  |       |       |       |        |       |       |       |
e|--------------------------------|------------------------5/7-----|
b|--------3---2-------4/5-----3---|------------3---2-------6/8-----|
g|------------2---------------4---|--------4-------2---------------|
d|--------------------------------|----4---------------------------|
a|--------------------------------|------------------------0-------|
e|------------2---------------3---|----------------2---------------|
 
  |       |       |       |        |       |       |       |
e|--------------------------------|--------------------------------|
b|----8-------5---------------3---|--------3-----------3-----------|
g|------------6-------6-----------|----2-----------2-----------2---|
d|--------------------------------|0-----------0-----------0-------|
a|--------------------------------|--------------------------------|
e|------------5-------------------|--------------------------------|
 
  |       |       |       |        |       |       |       |
e|--------------------------------|5-------5---5-------5-------5---|
b|--------3-----------3-----------|5-------5---5-------5-------7---|
g|----2-----------2-----------2---|4-------4---4-------4-------6---|
d|0-----------0-----------0-------|--------------------------------|
a|--------------------------------|4---------------------------5---|
e|--------------------------------|--------------------------------|
 
  |       |       |       |        |       |       |       |
e|----5h7---------------------7---|5-------4-----------------------|
b|--------------------------------|5-----------7p--5h--7-----------|
g|--------------------------------|4-------------------------------|
d|--------------------------------|--------------------------------|
a|--------------------------------|4-------------------------------|
e|--------------------------------|--------------------------------|
 
  |       |       |       |        |       |       |       |
e|----------------------------5---|5-------5---4-------5-----------|
b|--------5-----------5-----------|5-------------------------------|
g|----6-------4-------------------|4-------------------------------|
d|0-------------------------------|--------------------------------|
a|--------------------------------|4-------------------------------|
e|--------------------------------|--------------------------------|
 
  |       |       |       |        |       |       |       |
e|10------9---7h9p7---------------|7-------------------------------|
b|7---------------------10--------|8-------------------------------|
g|9-------------------------------|7-------------------------------|
d|--------------------------------|9-------------------------------|
a|7-------------------------------|7-------------------------------|
e|--------------------------------|--------------------------------|
 
  |       |       |       |        |       |       |       |
e|--------------------------------|9-------9h10p-------------------|
b|--------3-----------3-----------|10------10----------10------8---|
g|----2-----------2-----------2---|----9---------------11------9---|
d|0-----------0-----------0-------|0-------0-------0-------0-------|
a|--------------------------------|--------------------------------|
e|--------------------------------|--------------------------------|
 
  |       |       |       |        |       |       |       |
e|--------------------------------|7-------7h9-7-------------------|
b|--------8-----------8-----------|8-------8---8-------8-------7---|
g|----9-----------9-----------9---|--------------------9-------7---|
d|0-----------0-----------0-------|----0-----------0-------0-------|
a|--------------------------------|--------------------------------|
e|--------------------------------|--------------------------------|
 
  |       |       |       |        |       |       |       |
e|--------------------------------|5---5h7-----7-------5-------2---|
b|--------7-----------7-------7---|7---7-------7---------------3---|
g|----7-----------7---------------|7---7-------6---------------4---|
d|0-----------0-----------0-------|0-----------0-------------------|
a|--------------------------------|--------------------------------|
e|--------------------------------|----------------------------3---|
 
  |       |       |       |        |       |       |       |
e|--------------------------------|--------------------------------|
b|------------3---2-------3-------|--------3---2-------4/5-----3---|
g|--------4-------2-------0-------|------------2---------------4---|
d|----4---------------------------|--------------------------------|
a|--------------------------------|--------------------------------|
e|----------------2-------0-------|------------2---------------3---|
 
  |       |       |       |        |       |       |       |
e|--------------------------------|--------------------4/5-----3---|
b|------------3---2-------3-------|--------3---2---------------3---|
g|--------4-------2-------0-------|------------2---------------4---|
d|----4---------------------------|--------------------------------|
a|--------------------------------|--------------------------------|
e|----------------2-------0-------|------------2---------------3---|
 
  |       |       |       |        |       |       |       |
e|------------------------5/7-----|--------------------------------|
b|------------3---2-------6/8-----|----8-------5---------------3---|
g|--------4-------2---------------|------------6-------6-----------|
d|----4---------------------------|--------------------------------|
a|------------------------0-------|--------------------------------|
e|----------------2---------------|------------5-------------------|
 
  |       |       |       |        |       |       |       |
e|--------------------------------|------------2-------0-------2---|
b|------------3---------------3---|----------------------------3---|
g|--------4---------------4-------|--------4-------------------4---|
d|----4---------------4-----------|----4---------------------------|
a|2---------------2---------------|0-------------------------------|
e|--------------------------------|----------------------------3---|
 
  |       |       |       |        |       |       |       |
e|--------------------------------|--------------------------------|
b|------------3---2-------3-------|--------3---2-------4/5-----3---|
g|--------4-------2-------0-------|------------2---------------4---|
d|----4---------------------------|--------------------------------|
a|--------------------------------|--------------------------------|
e|----------------2-------0-------|------------2---------------3---|
 
  |       |       |       |        |       |       |       |
e|--------------------------------|--------------------4/5-----3---|
b|------------3---2-------3-------|--------3---2---------------3---|
g|--------4-------2-------0-------|------------2---------------4---|
d|----4---------------------------|--------------------------------|
a|--------------------------------|--------------------------------|
e|----------------2-------0-------|------------2---------------3---|
 
  |       |       |       |        |       |       |       |
e|------------------------5/7-----|--------------------------------|
b|------------3---2-------6/8-----|----8-------5-----------3-------|
g|--------4-------2---------------|------------6-------6-----------|
d|----4---------------------------|--------------------------------|
a|------------------------0-------|--------------------------------|
e|----------------2---------------|------------5-------------------|
 
  |       |       |       |        |       |       |       |
e|--------------------------------|--------------------------------|
b|--------3-----------3-----------|--------3-----------3-----------|
g|----2-----------2-----------2---|----2-----------2-----------2---|
d|0-----------0-----------0-------|0-----------0-----------0-------|
a|--------------------------------|--------------------------------|
e|--------------------------------|--------------------------------|
 
  |       |       |       |        |       |       |       |
e|--------------------------------|10------------------------------|
b|--------3-----------3-----------|10------------------------------|
g|----2-----------2-----------2---|11------------------------------|
d|0-----------0-----------0-------|0-------------------------------|
a|--------------------------------|--------------------------------|
e|--------------------------------|--------------------------------|


Login to Edit
Edit
YouTube
Video
View Sheet Music
Sheet
Music
Print
Download Midi
Speed:
Download Midi Intro (login for the full song)
Get
Intro
Sustain:
alt 1     alt 2

 Rate:
5 star
4 star
3 star
2 star
1 star
 

Comments (0)
 

No comments yet...

Comment on this tab   -   Unhelpful comments are exterminated.
  Your Guest Name:
      [Member Login]
  Comments:
 

Don't understand the tab?
See "How to Read Guitar Tabs".
Supported tags:
<i>italics</i>
<b>bold</b>
<u>underline</u>
<tab>tab lines</tab>
  Are you a spam robot?

If not, solve the equation:




[91007 TabNabbers online]


©2022 TabNabber.com - Musician Supported Contact us Advertising Merchandise Privacy Policy Terms of Use facebook Twitter