TabNabber Tabs   Musician Supported
  Music Tabs
Espa˝ol English
Franšais Русский
guitar

Guitar Tab, Chords



(0 from 0 votes)
169 Views, Last Update 11 days ago new
by: Bill Maher
guest
[Guest]
eb|-3-------------------------|
Bb|-0-------0----0-------0-0--|
Gb|-0---X3--2-/4-0---X2--0-0--|   X2
Db|-0-------0---40-------0-0--|
Gb|-0-------0----5-------2-4--|
Eb|-3-------------------------|

eb|---------------------------------------------|
Bb|/3-3-3-3\1-0-------------------------2--2--7-|
Gb|-0-0-0-0-0-0---X2----------------X2--0--0--5-|
Db|-0-0-0-0-0-0-------2-2-2-1-1-1-------X--X--x-|
Gb|-0-0-0-0-0-0-------0-0-0-0-0-0-------2--2--7-|
Eb|---------------------------------------------|

eb|--------------------------------------|
Bb|-3-3-3---0--------0-0-0-0-0-0---------|
Gb|-0-0-0-5-0---X2---0-0-0-0-0-0---X2--0-|
Db|-4-4-4-4-4--------5-5-5-7-7-7-------7-|
Gb|-5-5-5-5-5--------5-5-5-7-7-7-------8-|
Eb|------------------5-5-5-7-7-7-------8-|

eb|--------------------------------------------------------------------------|
Bb|-0-0-0-0-0-0-7-7-0-0-0-0-0-0-0--------------------------------------------|
Gb|-4-2-0-0-0-0-5-5-4-2-0-0-0-0-0--------------------------------------------|
Db|-2-1-0-0-5-7-X-X-2-1-0-0-5-7-7--------------------------------------------|
Gb|-0-0-0-6-5-7-7-7-0-0-0-6-5-7-8--------------------------------------------|
Eb|---------5-7-------------5-7-8--------------------------------------------|


Login to Edit
Edit
YouTube
Video
View Sheet Music
Sheet
Music
Print
Download Midi
Speed:
Download Midi Intro (login for the full song)
Get
Intro
Sustain:
alt 1     alt 2

 Rate:
5 star
4 star
3 star
2 star
1 star
 

Comments (0)
 

No comments yet...

Comment on this tab   -   Unhelpful comments are exterminated.
  Your Guest Name:
      [Member Login]
  Comments:
 

Don't understand the tab?
See "How to Read Guitar Tabs".
Supported tags:
<i>italics</i>
<b>bold</b>
<u>underline</u>
<tab>tab lines</tab>
  Are you a spam robot?

If not, solve the equation:




[87222 TabNabbers online]


©2022 TabNabber.com - Musician Supported Contact us Advertising Merchandise Privacy Policy Terms of Use facebook Twitter