TabNabber Tabs   Musician Supported
  Music Tabs
Espa˝ol English
Franšais Русский
Artist: # A B C D E F G H I J K L M N O P Q R S T U V W X Y Z
guitar

Guitar Tab, Chords



(1 from 1 votes)
7,231 Views, Last Update 12 years ago
by: weathercat
guest
[Guest]
E------5---------------|---------------8-8-|-8(10)-8-5------8-|10^8--------|
B--------8^5-----------|---------8(10)-----|----------5/10----|----10^8----|
G-7(9)-------7^5---7^5-|-------------------|------------------|---------10-|
D----------------7-----|-7^5---------------|------------------|------------|
A----------------------|----8--------------|------------------|------------|
E----------------------|-------------------|------------------|------------|

E------------5-------|---------------------------|---5---------------------|
B-8^10---------8^5---|---------------------------|-----8^5-----------------|
G-------7(9)-------7-|-5---7^5-----------5---5-5-|-0-------7^5---7^5-------|
D--------------------|---7-----7^5---5-7---7-----|-------------7-----7^5---|
A--------------------|------------7--------------|-------------------------|
E--------------------|---------------------------|-------------------------|

E-------|-------------------------------------|--------------------15(17)--|
B-------|----------------------------------13-|-15(17)-15-13-15-13---------|
G-------|-----10---------------12----12-14----|----------------------------|
D-7^5---|---10--12^10--10-12/14---14----------|----------------------------|
A-----8-|/12---------12-----------------------|----------------------------|
E-------|-------------------------------------|----------------------------|

E-15-13-----------------|------------------------------|------------------|
B-------15(17)-15-13----|-13-15(17)15^13---------------|------------------|
G--------------------14-|---------------14--//--//--//-|-//--//--//--//---|
D-----------------------|------------------------------|------------------|
A-----------------------|------------------------------|------------------|
E-----------------------|------------------------------|------------------|

E------------15(17)-|-12----12-------------------------------15-|----------|
B---------13--------|----15----15-13----13-15-13----13-15(17)---|-(17)15^13|
G-//--//------------|----------------14----------14-------------|----------|
D-------------------|-------------------------------------------|----------|
A-------------------|-------------------------------------------|----------|
E-------------------|-------------------------------------------|----------|

E----|----------17-----------------------------|---------|------------------|
B----|-------20----20--------------------------|---------|------------------|
G-14-|-19(21)---------(21)19^17----19-17----17-|-19(21)--|-14(15.5)-14(15.5)|
D----|--------------------------19-------19----|---------|------------------|
A----|-----------------------------------------|---------|------------------|
E----|-----------------------------------------|---------|------------------|

E----------|--------|---------------------|------------|---20^17---20^17----|
B----------|--------|---------------------|---5--------|-17------17------17-|
G-14-12-14-|-12/14--|-10(13)-10-9-7-5-7-5-|-7---7-5----|--------------------|
D----------|--------|---------------------|---------7--|--------------------|
A----------|--------|---------------------|------------|--------------------|
E----------|--------|---------------------|------------|--------------------|

E-20^17---20^17---20^17--20(22)-|
B-------17------17-----17-------|
G-------------------------------|
D-------------------------------|
A-------------------------------|
E-------------------------------|


Login to Edit
Edit
YouTube
Video
View Sheet Music
Sheet
Music
Print
Speed:
Play Intro (login for the full song)
Play
Intro
Sustain:
Download midi (intro) ...

1 Votes
5 star:  (0)
4 star:  (0)
3 star:  (0)
2 star:  (0)
1 star: 100%  (1)
0 star:  (0)
 Rate:
5 star
4 star
3 star
2 star
1 star
 

Comments (0)
 

No comments yet...

Comment on this tab   -   Unhelpful comments are exterminated.
  Your Guest Name:
      [Member Login]
  Comments:
 

Don't understand the tab?
See "How to Read Guitar Tabs".
Supported tags:
<i>italics</i>
<b>bold</b>
<u>underline</u>
<tab>tab lines</tab>
  Are you a spam robot?

If not, solve the equation:




[377 TabNabbers online]
©2020 TabNabber.com - Musician Supported Contact us Advertising Merchandise Privacy Policy Terms of Use facebook Twitter