TabNabber Tabs   Musician Supported
  Music Tabs
Espa˝ol English
Franšais Русский
Artist: # A B C D E F G H I J K L M N O P Q R S T U V W X Y Z
guitar

Guitar Tab, Chords

Featured! Featured! Featured!

(4 from 2 votes)
10,625 Views, Last Update 11 years ago
by: Anonymous
guest
[Guest]
e|--------12h--------7b--5-3-5-7b-0|-5-7-0--3-5-0---------|----0-------0---------0------0--| 
b|-------12h-----------------------|----------------------|----1-------0---------1------0--| 
g|------12h------------------------|----------------------|----2-------1---------2------1--| 
d|---------------------------------|----------------------|----2-------2---------2------2--| 
a|---------------------------------|----------------------|-0----------2------0---------2--|
e|--12h----------------------------|----------------------|---------0----------------0-----|

e|---0---0--0--0--0--0-----------------0--|-0---0--0--0--0--0-----------------0-| |--------------------------------|
b|---1----1--1--1--1--1-1----0--0--0------|-1----1--1--1--1--1-1----0--0--0-----| |-1--1--1--1--1--0--0--0--0--0---|
g|---2-----2--2--2--2-----1---1--1--1-----|-2-----2--2--2--2-----1---1--1--1----| |--2--2--2--2--2--1--1--1--1--1--|2x
d|---2--------------------2----2--2--2----|-2--------------------2----2--2--2---| |---2--2--2--2--2--2--2--2--2--2-|
a|0-----------------------2---------------|-0--------------------2--------------| |--------------------------------|
e|------------------------0---------------|----------------------0--------------| |--------------------------------|

e|-------------------------------|    e|--------------------------------|   e|-0--0--0--0--0--0--0--0--0--0---|   
b|-------------------------------|    b|-1--1--1--1--1--0--0--0--0--0---|   b|--1--1--1--1--1--0--0--0--0--0--|   
g|2--2--2--2--2--1--1--1--1--1---|    g|--2--2--2--2--2--1--1--1--1--1--|2x g|---2--2--2--2--2--1--1--1--1--1-|2x 
d|-2--2--2--2--2--2--2--2--2--2--|2x  d|---2--2--2--2--2--2--2--2--2--2-|   d|--------------------------------|
a|--0--0--0--0--0--2--2--2--2--2-|    a|--------------------------------|   a|--------------------------------|
e|-------------------------------|    e|--------------------------------|   e|--------------------------------|

e|-0-0-0-0-0-0-0-0-0-0-0-0-0-0-0-0-0-0-0-0-0-0-0-0-0-|  e|----0---0-0-|
b|-1-1-1-1-1-0-0-0-0-0-1-1-1-1-1-0-0-0-0-0-1-0-1-0-1-|  b|---1---0--1-|
g|-2-2-2-2-2-1-1-1-1-1-2-2-2-2-2-1-1-1-1-1-2-1-2-1-2-|  d|--2---1---2-|
d|-2-2-2-2-2-2-2-2-2-2-2-2-2-2-2-2-2-2-2-2-2-2-2-2-2-|  a|-2--------2-|
a|-0-0-0-0-0-2-2-2-2-2-0-0-0-0-0-2-2-2-2-2-0-2-0-2-0-|  a|-----2----0-|
e|-0-0-0-0-0-0-0-0-0-0-0-0-0-0-0-0-0-0-0-0-0-0-0-0-0-|  e|----------0-|
   v ^ v ^ v v ^ v ^ v v ^ v ^ v v ^ v ^ v v v v v v


Login to Edit
Edit
YouTube
Video
View Sheet Music
Sheet
Music
Print
Speed:
Play Intro (login for the full song)
Play
Intro
Sustain:
Download midi (intro) ...

2 Votes
5 star: 50%  (1)
4 star:  (0)
3 star: 50%  (1)
2 star:  (0)
1 star:  (0)
0 star:  (0)
 Rate:
5 star
4 star
3 star
2 star
1 star
 

Comments (0)
 

No comments yet...

Comment on this tab   -   Unhelpful comments are exterminated.
  Your Guest Name:
      [Member Login]
  Comments:
 

Don't understand the tab?
See "How to Read Guitar Tabs".
Supported tags:
<i>italics</i>
<b>bold</b>
<u>underline</u>
<tab>tab lines</tab>
  Are you a spam robot?

If not, solve the equation:




[109 TabNabbers online]
©2020 TabNabber.com - Musician Supported Contact us Advertising Merchandise Privacy Policy Terms of Use facebook Twitter