TabNabber Tabs   Musician Supported
  Music Tabs
Espa˝ol English
Franšais Русский
guitar

Guitar Tab, Chords

Featured! Featured! Featured!

(0 from 0 votes)
8,416 Views, Last Update 13 years ago
by: Anonymous
guest
[Guest]
E|-5-------5-----5-5-------5-----5-3-------3-----3-3-------3-----3-|
B|---1-5-----1-5-----1-5-----1-5-----1-5-----1-5---0-3-5-0---3-5---|
G|-2-----2-------------------------0-----0-------------------------|
D|-----------------3-----3-----------------------------------------|
A|-----------------------------------------------------------------|
e|-----------------------------------------------------------------|

E|-5-------5-----5-5-------5-----5-3-------3-----3-3-------3-----3-5|
B|---1-5-----1-5-----1-5-----1-5-----1-5-----1-5---0-3-5-0---3-5----|
G|-2-----2-------------------------0-----0--------------------------|
D|-----------------3-----3------------------------------------------|
A|------------------------------------------------------------------|
e|------------------------------------------------------------------|

E|---10-------10-----8-10-------10-----8-10-------10------8-8-------8
B|-------10--------10-------8--------8-------10--------10-------6----
G|-----7---------7--------7--------7--------------------------5------
D|-------------------------------------------------------------------
A|---8------8----------10-----10------------12--12---12-----8-----8--
e|---------------------------------------10--------------------------

E|-----5-7-------7-----5-5-------5-----5-8-------8-----5-7-------7-----10|
B|---6-------8-------8-------3-------3-------6-------6-------8-------8-10|
G|-5-------7-------7-------2-------2-------5-------5-------7-------7-----|
D|-------5-----5-----------------------------------------5-----5---------|
A|-----------------------5-----5---------8-----8-------------------------|
e|-----------------------------------------------------------------------|


Login to Edit
Edit
YouTube
Video
View Sheet Music
Sheet
Music
Print
Speed:
Play Intro (login for the full song)
Play
Intro
Sustain:
Download midi (intro) ...

 Rate:
5 star
4 star
3 star
2 star
1 star
 

Comments (0)
 

No comments yet...

Comment on this tab   -   Unhelpful comments are exterminated.
  Your Guest Name:
      [Member Login]
  Comments:
 

Don't understand the tab?
See "How to Read Guitar Tabs".
Supported tags:
<i>italics</i>
<b>bold</b>
<u>underline</u>
<tab>tab lines</tab>
  Are you a spam robot?

If not, solve the equation:




[31603 TabNabbers online]


©2022 TabNabber.com - Musician Supported Contact us Advertising Merchandise Privacy Policy Terms of Use facebook Twitter