TabNabber Tabs   Musician Supported
  Music Tabs
Espa˝ol English
Franšais Русский
Artist: # A B C D E F G H I J K L M N O P Q R S T U V W X Y Z
guitar

Guitar Tab, Chords

Featured! Featured! Featured!

(0 from 0 votes)
11,145 Views, Last Update 11 years ago
by: thenbxmas


Tabber
[Tabber]
ee|-----------------------------------------------------------
b|-----------------------------------------------------------
g|-----------------------------------------------------------
d|-----9------7------5------3------9------7------5------3----
a|---9------7------5------3------9------7------5------3------
e|-7------5------3------1------7------5------3------1--------

e|-----------------------------------------------------------
b|-----------------------------------------------------------
g|-----------------------------------------------------------
d|-----9------7------5------3------9------7------5------3----
a|---9------7------5------3------9------7------5------3------
e|-7------5------3------1------7------5------3------1--------

e|-----------------------------------------------------------
b|-----------------------------------------------------------
g|-----------------------------------------------------------
d|-----9------7------5------3------9------7------5------3----
a|---9------7------5------3------9------7------5------3------
e|-7------5------3------1------7------5------3------1--------

e|-----------------------------------------------------------
b|-----------------------------------------------------------
g|-----------------------------------------------------------
d|-----9------7------5------3------9------7------5------3----
a|---9------7------5------3------9------7------5------3------
e|-7------5------3------1------7------5------3------1--------

e|-----------------------------------------------------------
b|-----------------------------------------------------------
g|-----------------------------------------------------------
d|-----9------7------5------3------9------7------5------3----
a|---9------7------5------3------9------7------5------3------
e|-7------5------3------1------7------5------3------1--------

e|-----------------------------------------------------------
b|-----------------------------------------------------------
g|-----------------------------------------------------------
d|---9--------7--------5--------3----------------------------
a|-----9--------7--------5--------3--------------------------
e|-7--------5--------3--------1------------------------------

e|-----------------------------------------------------------
b|-----------------------------------------------------------
g|-----------------------------------------------------------
d|---9--------7--------5--------3----------------------------
a|-----9--------7--------5--------3--------------------------
e|-7--------5--------3--------1------------------------------

e|-----------------------------------------------------------
b|-----------------------------------------------------------
g|-----------------------------------------------------------
d|-----9------7------5------3------9------7------5------3----
a|---9------7------5------3------9------7------5------3------
e|-7------5------3------1------7------5------3------1--------

e|-----------------------------------------------------------
b|-----------------------------------------------------------
g|-----------------------------------------------------------
d|-----9------7------5------3------9------7------5------3----
a|---9------7------5------3------9------7------5------3------
e|-7------5------3------1------7------5------3------1--------

e|-----------------------------------------------------------
b|-----------------------------------------------------------
g|-----------------------------------------------------------
d|-----9------7------5------3------9------7------5------3----
a|---9------7------5------3------9------7------5------3------
e|-7------5------3------1------7------5------3------1--------

e|-----------------------------------------------------------
b|-----------------------------------------------------------
g|-----------------------------------------------------------
d|-----9------7------5------3------9------7------5------3----
a|---9------7------5------3------9------7------5------3------
e|-7------5------3------1------7------5------3------1--------

e|-----------------------------------------------------------
b|-----------------------------------------------------------
g|-----------------------------------------------------------
d|---9--------7--------5--------3----------------------------
a|-----9--------7--------5--------3--------------------------
e|-7--------5--------3--------1------------------------------

e|-----------------------------------------------------------
b|-----------------------------------------------------------
g|-----------------------------------------------------------
d|-----9------7------5------3------9------7------5------3----
a|---9------7------5------3------9------7------5------3------
e|-7------5------3------1------7------5------3------1--------

e|-----------------------------------------------------------
b|-----------------------------------------------------------
g|-----------------------------------------------------------
d|-----9------7------5------3------9------7------5------3----
a|---9------7------5------3------9------7------5------3------
e|-7------5------3------1------7------5------3------1--------

e|-----------------------------------------------------------
b|-----------------------------------------------------------
g|-----------------------------------------------------------
d|-----9------7------5------3------9------7------5------3----
a|---9------7------5------3------9------7------5------3------
e|-7------5------3------1------7------5------3------1--------

e|-----------------------------------------------------------
b|-----------------------------------------------------------
g|-----------------------------------------------------------
d|-----9------7------5------3------9------7------5------3----
a|---9------7------5------3------9------7------5------3------
e|-7------5------3------1------7------5------3------1--------

e|-----------------------------------------------------------
b|-----------------------------------------------------------
g|-----------------------------------------------------------
d|---9--------7--------5--------3----------------------------
a|-----9--------7--------5--------3--------------------------
e|-7--------5--------3--------1------------------------------

e|-----------------------------------------------------------
b|-----------------------------------------------------------
g|-----------------------------------------------------------
d|---9--------7--------5--------3----------------------------
a|-----9--------7--------5--------3--------------------------
e|-7--------5--------3--------1------------------------------


e|-----------------------------------------------------------
b|-----------------------------------------------------------
g|-----------------------------------------------------------
d|-9------7------5------3------------------------------------
a|---9------7------5------3----------------------------------
e|-----7------5------3------1--------------------------------

e|-----------------------------------------------------------
b|-----------------------------------------------------------
g|-----------------------------------------------------------
d|---9--------7--------5--------3----------------------------
a|-----9--------7--------5--------3--------------------------
e|-7--------5--------3--------1------------------------------

e|-----------------------------------------------------------
b|-----------------------------------------------------------
g|-----------------------------------------------------------
d|-----9------7------5------3------9------7------5-----------
a|---9------7------5------3------9------7------5-------------
e|-7------5------3------1------7------5------3------1--------

e|-----------------------------------------------------------
b|-----------------------------------------------------------
g|-----------------------------------------------------------
d|-----9------7------5------3--------------------------------
a|---9------7------5------3----------------------------------
e|-7------5------3------1------7-----------------------------


Login to Edit
Edit
YouTube
Video
View Sheet Music
Sheet
Music
Print
Speed:
Play Intro (login for the full song)
Play
Intro
Sustain:
Download midi (intro) ...

 Rate:
5 star
4 star
3 star
2 star
1 star
 

Comments (0)
 

No comments yet...

Comment on this tab   -   Unhelpful comments are exterminated.
  Your Guest Name:
      [Member Login]
  Comments:
 

Don't understand the tab?
See "How to Read Guitar Tabs".
Supported tags:
<i>italics</i>
<b>bold</b>
<u>underline</u>
<tab>tab lines</tab>
  Are you a spam robot?

If not, solve the equation:




[988 TabNabbers online]
©2020 TabNabber.com - Musician Supported Contact us Advertising Merchandise Privacy Policy Terms of Use facebook Twitter