TabNabber Tabs   Musician Supported
  Music Tabs
Espa˝ol English
Franšais Русский
Artist: # A B C D E F G H I J K L M N O P Q R S T U V W X Y Z
guitar

Guitar Tab, Chords



(0 from 0 votes)
7,665 Views, Last Update 12 years ago
by: thenbxmas


Tabber
[Tabber]
e|-7---5---7---8---7---5------------5------------------
b|-0-----------------------8---5----5------------------
g|-0--------------------------------5------------------
d|-5--------------------------------5------------------
a|-7--------------------------------7------------------
e|-----------------------------------------------------

e|-5---3--------------------3------------5-------------
b|---------7---5-----------------5---7------------5----
g|-----------------5---4----5----------------7---------
d|--------------------------5--------------------------
a|--------------------------3--------------------------
e|-----------------------------------------------------

e|-3-------0----2---3---2---5--------------------------
b|-----3---0-------------------------------------------
g|-5---4---0-------------------------------------------
d|-5---4---2-------------------------------------------
a|-3---2---3-------------------------------------------
e|-----------------------------------------------------

e|-0----0----10---0---------------8---7----------------
b|-12---10---0----8---7---8---7------------------------
g|-----------------------------------------------------
d|-----------------------------------------------------
a|-----------------------------------------------------
e|-----------------------------------------------------

e|-3---5---0---7---0---0-------------------------------
b|-----0---7---0---4---5-------------------------------
g|-5---------------------------------------------------
d|-5---------------------------------------------------
a|-3---------------------------------------------------
e|-----------------------------------------------------


Login to Edit
Edit
YouTube
Video
View Sheet Music
Sheet
Music
Print
Speed:
Play Intro (login for the full song)
Play
Intro
Sustain:
Download midi (intro) ...

 Rate:
5 star
4 star
3 star
2 star
1 star
 

Comments (0)
 

No comments yet...

Comment on this tab   -   Unhelpful comments are exterminated.
  Your Guest Name:
      [Member Login]
  Comments:
 

Don't understand the tab?
See "How to Read Guitar Tabs".
Supported tags:
<i>italics</i>
<b>bold</b>
<u>underline</u>
<tab>tab lines</tab>
  Are you a spam robot?

If not, solve the equation:




[68719 TabNabbers online]
©2021 TabNabber.com - Musician Supported Contact us Advertising Merchandise Privacy Policy Terms of Use facebook Twitter