TabNabber Tabs   Musician Supported
  Music Tabs
Espa˝ol English
Franšais Русский
Artist: # A B C D E F G H I J K L M N O P Q R S T U V W X Y Z
guitar

Guitar Tab, Chords

Featured! Featured! Featured!

(5 from 3 votes)
17,748 Views, Last Update 11 years ago
by: logan
guest
[Guest]
e|---------------------------------|--------------------------------
b|---------------------------------|--------------------------------
g|-----4-------4-------4-------4---|----5-------5-------5-------5---
d|---2---2---2---2---2---2---2---2-|--3---3---3---3---3---3---3---3-
a|-0-------0-------0-------0-------|0-------0-------0-------0-------
e|---------------------------------|--------------------------------


e|--------------------------------|--------------------------------
b|--------------------------------|--------------------------------
g|----4-------4-------4-------4---|----5-------5-------5-------5---
d|--2---2---2---2---2---2---2---2-|--3---3---3---3---3---3---3---3-
a|0-------0-------0-------0-------|0-------0-------0-------0-------
e|--------------------------------|--------------------------------


e|--------------------------------|--------------------------------
b|----5-------5-------5-------5---|--------------------------------
g|--------------------------------|----5-------5-------5-------5---
d|--4---4---4---4---4---4---4---4-|--3---3---3---3---3---3---3---3-
a|0-------0-------0-------0-------|0-------0-------0-------0-------
e|--------------------------------|--------------------------------


e|--------------------------------|--------------------------------
b|--------------------------------|--------------------------------
g|----4-------4-------4-------4---|----5-------5-------5-------5---
d|--4---4---4---4---4---4---4---4-|--3---3---3---3---3---3---3---3-
a|0-------0-------0-------0-------|0-------0-------0-------0-------
e|--------------------------------|--------------------------------

e|--------------------------------|--------------------------------|
b|----5-------5-------5-------5---|----5-------5-------5-------5---|
g|--------------------------------|--------------------------------|
d|--4---4---4---4---4---4---4---4-|--3---3---4---4---3---3---4---4-|
a|0-------0-------0-------0-------|0-------0-------0-------0-------|
e|--------------------------------|--------------------------------|


Login to Edit
Edit
YouTube
Video
View Sheet Music
Sheet
Music
Print
Speed:
Play Intro (login for the full song)
Play
Intro
Sustain:
Download midi (intro) ...

3 Votes
5 star: 100%  (3)
4 star:  (0)
3 star:  (0)
2 star:  (0)
1 star:  (0)
0 star:  (0)
 Rate:
5 star
4 star
3 star
2 star
1 star
 

Comments (0)
 

No comments yet...

Comment on this tab   -   Unhelpful comments are exterminated.
  Your Guest Name:
      [Member Login]
  Comments:
 

Don't understand the tab?
See "How to Read Guitar Tabs".
Supported tags:
<i>italics</i>
<b>bold</b>
<u>underline</u>
<tab>tab lines</tab>
  Are you a spam robot?

If not, solve the equation:




[1093 TabNabbers online]
©2021 TabNabber.com - Musician Supported Contact us Advertising Merchandise Privacy Policy Terms of Use facebook Twitter